  0
SECTION
  2
HEADER
  9
$ACADVER
  1
AC1015
  9
$ACADMAINTVER
 70
     6
  9
$DWGCODEPAGE
  3
ANSI_1254
  9
$INSBASE
 10
0.0
 20
0.0
 30
0.0
  9
$EXTMIN
 10
0.0
 20
0.0
 30
0.0
  9
$EXTMAX
 10
279.4
 20
215.9
 30
0.0
  9
$LIMMIN
 10
0.0
 20
0.0
  9
$LIMMAX
 10
279.4
 20
215.9
  9
$ORTHOMODE
 70
     0
  9
$REGENMODE
 70
     1
  9
$FILLMODE
 70
     1
  9
$QTEXTMODE
 70
     0
  9
$MIRRTEXT
 70
     1
  9
$LTSCALE
 40
1.0
  9
$ATTMODE
 70
     1
  9
$TEXTSIZE
 40
3.5
  9
$TRACEWID
 40
1.0
  9
$TEXTSTYLE
  7
Standard
  9
$CLAYER
  8
0
  9
$CELTYPE
  6
ByLayer
  9
$CECOLOR
 62
   256
  9
$CELTSCALE
 40
1.0
  9
$DISPSILH
 70
     0
  9
$DIMSCALE
 40
1.0
  9
$DIMASZ
 40
3.5
  9
$DIMEXO
 40
1.0
  9
$DIMDLI
 40
3.75
  9
$DIMRND
 40
0.0
  9
$DIMDLE
 40
0.0
  9
$DIMEXE
 40
1.0
  9
$DIMTP
 40
0.0
  9
$DIMTM
 40
0.0
  9
$DIMTXT
 40
3.5
  9
$DIMCEN
 40
2.5
  9
$DIMTSZ
 40
0.0
  9
$DIMTOL
 70
     0
  9
$DIMLIM
 70
     0
  9
$DIMTIH
 70
     1
  9
$DIMTOH
 70
     1
  9
$DIMSE1
 70
     0
  9
$DIMSE2
 70
     0
  9
$DIMTAD
 70
     1
  9
$DIMZIN
 70
     0
  9
$DIMBLK
  1

  9
$DIMASO
 70
     1
  9
$DIMSHO
 70
     1
  9
$DIMPOST
  1

  9
$DIMAPOST
  1

  9
$DIMALT
 70
     0
  9
$DIMALTD
 70
     3
  9
$DIMALTF
 40
0.0393700787
  9
$DIMLFAC
 40
1.0
  9
$DIMTOFL
 70
     1
  9
$DIMTVP
 40
0.0
  9
$DIMTIX
 70
     0
  9
$DIMSOXD
 70
     0
  9
$DIMSAH
 70
     0
  9
$DIMBLK1
  1

  9
$DIMBLK2
  1

  9
$DIMSTYLE
  2
ISO-25
  9
$DIMCLRD
 70
     0
  9
$DIMCLRE
 70
     0
  9
$DIMCLRT
 70
     0
  9
$DIMTFAC
 40
1.0
  9
$DIMGAP
 40
1.524
  9
$DIMJUST
 70
     0
  9
$DIMSD1
 70
     0
  9
$DIMSD2
 70
     0
  9
$DIMTOLJ
 70
     0
  9
$DIMTZIN
 70
     0
  9
$DIMALTZ
 70
     0
  9
$DIMALTTZ
 70
     0
  9
$DIMUPT
 70
     0
  9
$DIMDEC
 70
     2
  9
$DIMTDEC
 70
     2
  9
$DIMALTU
 70
     2
  9
$DIMALTTD
 70
     3
  9
$DIMTXSTY
  7
Standard
  9
$DIMAUNIT
 70
     0
  9
$DIMADEC
 70
     2
  9
$DIMALTRND
 40
0.0
  9
$DIMAZIN
 70
     0
  9
$DIMDSEP
 70
    44
  9
$DIMATFIT
 70
     3
  9
$DIMFRAC
 70
     0
  9
$DIMLDRBLK
  1

  9
$DIMLUNIT
 70
     2
  9
$DIMLWD
 70
    -2
  9
$DIMLWE
 70
    -2
  9
$DIMTMOVE
 70
     0
  9
$LUNITS
 70
     2
  9
$LUPREC
 70
     2
  9
$SKETCHINC
 40
1.0
  9
$FILLETRAD
 40
10.0
  9
$AUNITS
 70
     0
  9
$AUPREC
 70
     2
  9
$MENU
  1
.
  9
$ELEVATION
 40
0.0
  9
$PELEVATION
 40
0.0
  9
$THICKNESS
 40
0.0
  9
$LIMCHECK
 70
     0
  9
$CHAMFERA
 40
0.0
  9
$CHAMFERB
 40
0.0
  9
$CHAMFERC
 40
0.0
  9
$CHAMFERD
 40
0.0
  9
$SKPOLY
 70
     0
  9
$TDCREATE
 40
2458985.651552257
  9
$TDUCREATE
 40
2458985.526552257
  9
$TDUPDATE
 40
2458985.651552627
  9
$TDUUPDATE
 40
2458985.526552627
  9
$TDINDWG
 40
0.0000000116
  9
$TDUSRTIMER
 40
0.0000000116
  9
$USRTIMER
 70
     1
  9
$ANGBASE
 50
0.0
  9
$ANGDIR
 70
     0
  9
$PDMODE
 70
     0
  9
$PDSIZE
 40
-1.0
  9
$PLINEWID
 40
0.0
  9
$SPLFRAME
 70
     0
  9
$SPLINETYPE
 70
     6
  9
$SPLINESEGS
 70
     8
  9
$HANDSEED
  5
C1
  9
$SURFTAB1
 70
     6
  9
$SURFTAB2
 70
     6
  9
$SURFTYPE
 70
     6
  9
$SURFU
 70
     6
  9
$SURFV
 70
     6
  9
$UCSBASE
  2

  9
$UCSNAME
  2

  9
$UCSORG
 10
0.0
 20
0.0
 30
0.0
  9
$UCSXDIR
 10
1.0
 20
0.0
 30
0.0
  9
$UCSYDIR
 10
0.0
 20
1.0
 30
0.0
  9
$UCSORTHOREF
  2

  9
$UCSORTHOVIEW
 70
     0
  9
$UCSORGTOP
 10
0.0
 20
0.0
 30
0.0
  9
$UCSORGBOTTOM
 10
0.0
 20
0.0
 30
0.0
  9
$UCSORGLEFT
 10
0.0
 20
0.0
 30
0.0
  9
$UCSORGRIGHT
 10
0.0
 20
0.0
 30
0.0
  9
$UCSORGFRONT
 10
0.0
 20
0.0
 30
0.0
  9
$UCSORGBACK
 10
0.0
 20
0.0
 30
0.0
  9
$PUCSBASE
  2

  9
$PUCSNAME
  2

  9
$PUCSORG
 10
0.0
 20
0.0
 30
0.0
  9
$PUCSXDIR
 10
1.0
 20
0.0
 30
0.0
  9
$PUCSYDIR
 10
0.0
 20
1.0
 30
0.0
  9
$PUCSORTHOREF
  2

  9
$PUCSORTHOVIEW
 70
     0
  9
$PUCSORGTOP
 10
0.0
 20
0.0
 30
0.0
  9
$PUCSORGBOTTOM
 10
0.0
 20
0.0
 30
0.0
  9
$PUCSORGLEFT
 10
0.0
 20
0.0
 30
0.0
  9
$PUCSORGRIGHT
 10
0.0
 20
0.0
 30
0.0
  9
$PUCSORGFRONT
 10
0.0
 20
0.0
 30
0.0
  9
$PUCSORGBACK
 10
0.0
 20
0.0
 30
0.0
  9
$USERI1
 70
     0
  9
$USERI2
 70
     0
  9
$USERI3
 70
     0
  9
$USERI4
 70
     0
  9
$USERI5
 70
     0
  9
$USERR1
 40
0.0
  9
$USERR2
 40
0.0
  9
$USERR3
 40
0.0
  9
$USERR4
 40
0.0
  9
$USERR5
 40
0.0
  9
$WORLDVIEW
 70
     1
  9
$SHADEDGE
 70
     3
  9
$SHADEDIF
 70
    70
  9
$TILEMODE
 70
     1
  9
$MAXACTVP
 70
    64
  9
$PINSBASE
 10
0.0
 20
0.0
 30
0.0
  9
$PLIMCHECK
 70
     0
  9
$PEXTMIN
 10
1.0000000000E+20
 20
1.0000000000E+20
 30
1.0000000000E+20
  9
$PEXTMAX
 10
-1.0000000000E+20
 20
-1.0000000000E+20
 30
-1.0000000000E+20
  9
$PLIMMIN
 10
0.0
 20
0.0
  9
$PLIMMAX
 10
420.0
 20
297.0
  9
$UNITMODE
 70
     0
  9
$VISRETAIN
 70
     1
  9
$PLINEGEN
 70
     0
  9
$PSLTSCALE
 70
     1
  9
$TREEDEPTH
 70
  3020
  9
$CMLSTYLE
  2
Standard
  9
$CMLJUST
 70
     0
  9
$CMLSCALE
 40
20.0
  9
$PROXYGRAPHICS
 70
     1
  9
$MEASUREMENT
 70
     1
  9
$CELWEIGHT
370
    -1
  9
$ENDCAPS
280
     0
  9
$JOINSTYLE
280
     0
  9
$LWDISPLAY
290
     1
  9
$INSUNITS
 70
     4
  9
$HYPERLINKBASE
  1

  9
$STYLESHEET
  1

  9
$XEDIT
290
     1
  9
$CEPSNTYPE
380
     0
  9
$PSTYLEMODE
290
     1
  9
$FINGERPRINTGUID
  2
{cb558c1a-3549-49ec-a61d-1e2578ed6aaf}
  9
$VERSIONGUID
  2
{FAEB1C32-E019-11D5-929B-00C0DF256EC4}
  9
$EXTNAMES
290
     1
  9
$PSVPSCALE
 40
0.0
  9
$OLESTARTUP
290
     0
  0
ENDSEC
  0
SECTION
  2
CLASSES
  0
CLASS
  1
ACDBDICTIONARYWDFLT
  2
AcDbDictionaryWithDefault
  3
ObjectDBX Classes
 90
        0
280
     0
281
     0
  0
CLASS
  1
VISUALSTYLE
  2
AcDbVisualStyle
  3
ObjectDBX Classes
 90
     4095
280
     0
281
     0
  0
CLASS
  1
MATERIAL
  2
AcDbMaterial
  3
ObjectDBX Classes
 90
     1153
280
     0
281
     0
  0
CLASS
  1
SCALE
  2
AcDbScale
  3
ObjectDBX Classes
 90
     1153
280
     0
281
     0
  0
CLASS
  1
TABLESTYLE
  2
AcDbTableStyle
  3
ObjectDBX Classes
 90
     4095
280
     0
281
     0
  0
CLASS
  1
MLEADERSTYLE
  2
AcDbMLeaderStyle
  3
ACDB_MLEADERSTYLE_CLASS
 90
     4095
280
     0
281
     0
  0
CLASS
  1
SUN
  2
AcDbSun
  3
SCENEOE
 90
     1153
280
     0
281
     0
  0
CLASS
  1
ACDBPLACEHOLDER
  2
AcDbPlaceHolder
  3
ObjectDBX Classes
 90
        0
280
     0
281
     0
  0
CLASS
  1
LAYOUT
  2
AcDbLayout
  3
ObjectDBX Classes
 90
        0
280
     0
281
     0
  0
ENDSEC
  0
SECTION
  2
TABLES
  0
TABLE
  2
VPORT
  5
8
330
0
100
AcDbSymbolTable
 70
     1
  0
VPORT
  5
29
330
8
100
AcDbSymbolTableRecord
100
AcDbViewportTableRecord
  2
*Active
 70
     0
 10
0.0
 20
0.0
 11
1.0
 21
1.0
 12
139.7
 22
107.95
 13
0.0
 23
0.0
 14
10.0
 24
10.0
 15
10.0
 25
10.0
 16
0.0
 26
0.0
 36
1.0
 17
0.0
 27
0.0
 37
0.0
 40
215.9
 41
1.2941176471
 42
50.0
 43
0.0
 44
0.0
 50
0.0
 51
0.0
 71
     0
 72
  2000
 73
     1
 74
     3
 75
     0
 76
     0
 77
     0
 78
     0
281
     0
 65
     1
110
0.0
120
0.0
130
0.0
111
1.0
121
0.0
131
0.0
112
0.0
122
1.0
132
0.0
 79
     0
146
0.0
  0
ENDTAB
  0
TABLE
  2
LTYPE
  5
5
330
0
100
AcDbSymbolTable
 70
     6
  0
LTYPE
  5
14
330
5
100
AcDbSymbolTableRecord
100
AcDbLinetypeTableRecord
  2
ByBlock
 70
     0
  3

 72
    65
 73
     0
 40
0.0
  0
LTYPE
  5
15
330
5
100
AcDbSymbolTableRecord
100
AcDbLinetypeTableRecord
  2
ByLayer
 70
     0
  3

 72
    65
 73
     0
 40
0.0
  0
LTYPE
  5
16
330
5
100
AcDbSymbolTableRecord
100
AcDbLinetypeTableRecord
  2
Continuous
 70
     0
  3
Solid line
 72
    65
 73
     0
 40
0.0
  0
LTYPE
  5
6E
330
5
100
AcDbSymbolTableRecord
100
AcDbLinetypeTableRecord
  2
HIDDEN
 70
     0
  3
Hidden __ __ __ __ __ __ __ __ __ __ __ __ __ __
 72
    65
 73
     2
 40
1.905
 49
1.27
 74
     0
 49
-0.635
 74
     0
  0
LTYPE
  5
6F
330
5
100
AcDbSymbolTableRecord
100
AcDbLinetypeTableRecord
  2
PHANTOM
 70
     0
  3
Phantom ______  __  __  ______  __  __  ______
 72
    65
 73
     6
 40
12.7
 49
6.35
 74
     0
 49
-1.27
 74
     0
 49
1.27
 74
     0
 49
-1.27
 74
     0
 49
1.27
 74
     0
 49
-1.27
 74
     0
  0
LTYPE
  5
70
330
5
100
AcDbSymbolTableRecord
100
AcDbLinetypeTableRecord
  2
CENTER
 70
     0
  3
Center ____ _ ____ _ ____ _ ____ _ ____ _ ____
 72
    65
 73
     4
 40
10.16
 49
6.35
 74
     0
 49
-1.27
 74
     0
 49
1.27
 74
     0
 49
-1.27
 74
     0
  0
LTYPE
  5
71
330
5
100
AcDbSymbolTableRecord
100
AcDbLinetypeTableRecord
  2
CENTERX2
 70
     0
  3
Center (2x) ________  __  ________  __  _____
 72
    65
 73
     4
 40
20.32
 49
12.7
 74
     0
 49
-2.54
 74
     0
 49
2.54
 74
     0
 49
-2.54
 74
     0
  0
LTYPE
  5
72
330
5
100
AcDbSymbolTableRecord
100
AcDbLinetypeTableRecord
  2
DOT2
 70
     0
  3
Dot (.5x) ........................................
 72
    65
 73
     2
 40
0.635
 49
0.0
 74
     0
 49
-0.635
 74
     0
  0
ENDTAB
  0
TABLE
  2
LAYER
  5
2
330
0
100
AcDbSymbolTable
 70
    17
  0
LAYER
  5
10
330
2
100
AcDbSymbolTableRecord
100
AcDbLayerTableRecord
  2
0
 70
     0
 62
     7
  6
Continuous
370
    -3
390
F
  0
LAYER
  5
73
330
2
100
AcDbSymbolTableRecord
100
AcDbLayerTableRecord
  2
FORMAT
 70
     0
 62
     7
  6
Continuous
370
    -3
390
F
  0
LAYER
  5
74
330
2
100
AcDbSymbolTableRecord
100
AcDbLayerTableRecord
  2
YARDIMCI_GEOMETRI
 70
     0
 62
    -6
  6
Continuous
290
     0
370
    -3
390
F
  0
LAYER
  5
75
330
2
100
AcDbSymbolTableRecord
100
AcDbLayerTableRecord
  2
SAYFA_CERCEVESI
 70
     0
 62
     7
  6
Continuous
370
    25
390
F
  0
LAYER
  5
76
330
2
100
AcDbSymbolTableRecord
100
AcDbLayerTableRecord
  2
ANTET
 70
     0
 62
     7
  6
Continuous
370
    -3
390
F
  0
LAYER
  5
77
330
2
100
AcDbSymbolTableRecord
100
AcDbLayerTableRecord
  2
OLCU
 70
     0
 62
   150
  6
Continuous
370
    -3
390
F
  0
LAYER
  5
78
330
2
100
AcDbSymbolTableRecord
100
AcDbLayerTableRecord
  2
METIN
 70
     0
 62
    96
  6
Continuous
370
    -3
390
F
  0
LAYER
  5
79
330
2
100
AcDbSymbolTableRecord
100
AcDbLayerTableRecord
  2
BALON
 70
     0
 62
     5
  6
Continuous
370
    -3
390
F
  0
LAYER
  5
7A
330
2
100
AcDbSymbolTableRecord
100
AcDbLayerTableRecord
  2
VURGU
 70
     0
 62
     7
  6
Continuous
370
    -3
390
F
  0
LAYER
  5
7B
330
2
100
AcDbSymbolTableRecord
100
AcDbLayerTableRecord
  2
SILIK
 70
     0
 62
     7
  6
Continuous
370
    -3
390
F
  0
LAYER
  5
7C
330
2
100
AcDbSymbolTableRecord
100
AcDbLayerTableRecord
  2
MODEL
 70
     0
 62
     7
  6
Continuous
370
    -3
390
F
  0
LAYER
  5
7D
330
2
100
AcDbSymbolTableRecord
100
AcDbLayerTableRecord
  2
DETAYLANDıRMA
 70
     0
 62
   190
  6
Continuous
370
    -3
390
F
  0
LAYER
  5
7E
330
2
100
AcDbSymbolTableRecord
100
AcDbLayerTableRecord
  2
TOLERANS
 70
     0
 62
   230
  6
Continuous
370
    -3
390
F
  0
LAYER
  5
7F
330
2
100
AcDbSymbolTableRecord
100
AcDbLayerTableRecord
  2
MERKEZ_CIZGILERI
 70
     0
 62
    30
  6
Continuous
370
    -3
390
F
  0
LAYER
  5
80
330
2
100
AcDbSymbolTableRecord
100
AcDbLayerTableRecord
  2
KESIT-DETAY_CIZGILERI
 70
     0
 62
     7
  6
Continuous
370
    -3
390
F
  0
LAYER
  5
81
330
2
100
AcDbSymbolTableRecord
100
AcDbLayerTableRecord
  2
\U+041E\U+0421\U+0415\U+0412\U+042B\U+0415
 70
     0
 62
     7
  6
Continuous
370
    -3
390
F
  0
LAYER
  5
82
330
2
100
AcDbSymbolTableRecord
100
AcDbLayerTableRecord
  2
\U+0412\U+041E\U+0414\U+042F\U+041D\U+042B\U+0415_\U+0417\U+041D\U+0410\U+041A\U+0418
 70
     0
 62
    11
  6
Continuous
370
    -3
390
F
  0
ENDTAB
  0
TABLE
  2
STYLE
  5
3
330
0
100
AcDbSymbolTable
 70
     1
  0
STYLE
  5
11
330
3
100
AcDbSymbolTableRecord
100
AcDbTextStyleTableRecord
  2
Standard
 70
     0
 40
0.0
 41
1.0
 50
0.0
 71
     0
 42
3.5
  3
txt
  4

  0
ENDTAB
  0
TABLE
  2
VIEW
  5
6
330
0
100
AcDbSymbolTable
 70
     0
  0
ENDTAB
  0
TABLE
  2
UCS
  5
7
330
0
100
AcDbSymbolTable
 70
     0
  0
ENDTAB
  0
TABLE
  2
APPID
  5
9
330
0
100
AcDbSymbolTable
 70
     1
  0
APPID
  5
12
330
9
100
AcDbSymbolTableRecord
100
AcDbRegAppTableRecord
  2
ACAD
 70
     0
  0
ENDTAB
  0
TABLE
  2
DIMSTYLE
  5
A
330
0
100
AcDbSymbolTable
 70
     1
100
AcDbDimStyleTable
  0
DIMSTYLE
105
27
330
A
100
AcDbSymbolTableRecord
100
AcDbDimStyleTableRecord
  2
ISO-25
 70
     0
 41
2.5
 42
0.625
 43
3.75
 44
1.25
 73
     0
 74
     0
 77
     1
 78
     8
140
2.5
141
2.5
143
0.0393700787
147
0.625
171
     3
172
     1
178
     0
271
     2
272
     2
274
     3
278
    44
283
     0
284
     8
340
11
  0
ENDTAB
  0
TABLE
  2
BLOCK_RECORD
  5
1
330
0
100
AcDbSymbolTable
 70
     1
  0
BLOCK_RECORD
  5
1F
330
1
100
AcDbSymbolTableRecord
100
AcDbBlockTableRecord
  2
*Model_Space
340
22
  0
BLOCK_RECORD
  5
1B
330
1
100
AcDbSymbolTableRecord
100
AcDbBlockTableRecord
  2
*Paper_Space
340
1E
  0
BLOCK_RECORD
  5
23
330
1
100
AcDbSymbolTableRecord
100
AcDbBlockTableRecord
  2
*Paper_Space0
340
26
  0
ENDTAB
  0
ENDSEC
  0
SECTION
  2
BLOCKS
  0
BLOCK
  5
20
330
1F
100
AcDbEntity
  8
0
100
AcDbBlockBegin
  2
*Model_Space
 70
     0
 10
0.0
 20
0.0
 30
0.0
  3
*Model_Space
  1

  0
ENDBLK
  5
21
330
1F
100
AcDbEntity
  8
0
100
AcDbBlockEnd
  0
BLOCK
  5
1C
330
1B
100
AcDbEntity
 67
     1
  8
0
100
AcDbBlockBegin
  2
*Paper_Space
 70
     0
 10
0.0
 20
0.0
 30
0.0
  3
*Paper_Space
  1

  0
ENDBLK
  5
1D
330
1B
100
AcDbEntity
 67
     1
  8
0
100
AcDbBlockEnd
  0
BLOCK
  5
24
330
23
100
AcDbEntity
  8
0
100
AcDbBlockBegin
  2
*Paper_Space0
 70
     0
 10
0.0
 20
0.0
 30
0.0
  3
*Paper_Space0
  1

  0
ENDBLK
  5
25
330
23
100
AcDbEntity
  8
0
100
AcDbBlockEnd
  0
ENDSEC
  0
SECTION
  2
ENTITIES
  0
CIRCLE
  5
83
330
1F
100
AcDbEntity
  8
0
  6
Continuous
 62
     7
370
    25
100
AcDbCircle
 10
135.9944086538
 20
118.27271875
 30
0.0
 40
354.9999999999999
  0
CIRCLE
  5
84
330
1F
100
AcDbEntity
  8
0
  6
Continuous
 62
     7
370
    25
100
AcDbCircle
 10
135.9944086538
 20
118.27271875
 30
0.0
 40
312.9
  0
CIRCLE
  5
85
330
1F
100
AcDbEntity
  8
0
  6
Continuous
 62
     7
370
    25
100
AcDbCircle
 10
135.9944086538
 20
118.27271875
 30
0.0
 40
370.0
  0
CIRCLE
  5
86
330
1F
100
AcDbEntity
  8
0
  6
Continuous
 62
     7
370
    25
100
AcDbCircle
 10
135.9944086538
 20
118.27271875
 30
0.0
 40
400.0000000000001
  0
LINE
  5
87
330
1F
100
AcDbEntity
  8
0
  6
Continuous
 62
     7
370
    25
100
AcDbLine
 10
535.9944086538
 20
702.6905011601
 30
0.0
 11
535.9944086538
 21
752.6905011601
 31
0.0
  0
LINE
  5
88
330
1F
100
AcDbEntity
  8
0
  6
Continuous
 62
     7
370
    25
100
AcDbLine
 10
-264.0055913462
 20
752.6905011601
 30
0.0
 11
-264.0055913462
 21
702.6905011601
 31
0.0
  0
LINE
  5
89
330
1F
100
AcDbEntity
  8
0
  6
Continuous
 62
     7
370
    25
100
AcDbLine
 10
505.9944086538
 20
752.6905011601
 30
0.0
 11
490.9944086538
 21
842.6905011601
 31
0.0
  0
LINE
  5
8A
330
1F
100
AcDbEntity
  8
0
  6
Continuous
 62
     7
370
    25
100
AcDbLine
 10
-219.0055913462
 20
842.6905011601
 30
0.0
 11
-234.0055913462
 21
752.6905011601
 31
0.0
  0
LINE
  5
8B
330
1F
100
AcDbEntity
  8
0
  6
Continuous
 62
     7
370
    25
100
AcDbLine
 10
490.9944086538
 20
842.6905011601
 30
0.0
 11
490.9944086538
 21
1124.6905011601
 31
0.0
  0
LINE
  5
8C
330
1F
100
AcDbEntity
  8
0
  6
Continuous
 62
     7
370
    25
100
AcDbLine
 10
-219.0055913462
 20
1124.6905011601
 30
0.0
 11
-219.0055913462
 21
842.6905011601
 31
0.0
  0
LINE
  5
8D
330
1F
100
AcDbEntity
  8
0
  6
Continuous
 62
     7
370
    25
100
AcDbLine
 10
535.9944086538
 20
702.6905011601
 30
0.0
 11
-264.0055913462
 21
702.6905011601
 31
0.0
  0
LINE
  5
8E
330
1F
100
AcDbEntity
  8
0
  6
Continuous
 62
     7
370
    25
100
AcDbLine
 10
535.9944086538
 20
752.6905011601
 30
0.0
 11
-264.0055913462
 21
752.6905011601
 31
0.0
  0
LINE
  5
8F
330
1F
100
AcDbEntity
  8
0
  6
Continuous
 62
     7
370
    25
100
AcDbLine
 10
490.9944086538
 20
842.6905011601
 30
0.0
 11
-219.0055913462
 21
842.6905011601
 31
0.0
  0
LINE
  5
90
330
1F
100
AcDbEntity
  8
0
  6
Continuous
 62
     7
370
    25
100
AcDbLine
 10
490.9944086538
 20
1124.6905011601
 30
0.0
 11
-219.0055913462
 21
1124.6905011601
 31
0.0
  0
LINE
  5
91
330
1F
100
AcDbEntity
  8
0
  6
Continuous
 62
     7
370
    25
100
AcDbLine
 10
-493.9157365945
 20
518.27271875
 30
0.0
 11
-543.9157365945
 21
518.27271875
 31
0.0
  0
LINE
  5
92
330
1F
100
AcDbEntity
  8
0
  6
Continuous
 62
     7
370
    25
100
AcDbLine
 10
-543.9157365945
 20
-281.72728125
 30
0.0
 11
-493.9157365945
 21
-281.72728125
 31
0.0
  0
LINE
  5
93
330
1F
100
AcDbEntity
  8
0
  6
Continuous
 62
     7
370
    25
100
AcDbLine
 10
-543.9157365945
 20
488.27271875
 30
0.0
 11
-633.9157365945
 21
473.27271875
 31
0.0
  0
LINE
  5
94
330
1F
100
AcDbEntity
  8
0
  6
Continuous
 62
     7
370
    25
100
AcDbLine
 10
-633.9157365945
 20
-236.72728125
 30
0.0
 11
-543.9157365945
 21
-251.72728125
 31
0.0
  0
LINE
  5
95
330
1F
100
AcDbEntity
  8
0
  6
Continuous
 62
     7
370
    25
100
AcDbLine
 10
-633.9157365945
 20
473.27271875
 30
0.0
 11
-915.9157365945
 21
473.27271875
 31
0.0
  0
LINE
  5
96
330
1F
100
AcDbEntity
  8
0
  6
Continuous
 62
     7
370
    25
100
AcDbLine
 10
-915.9157365945
 20
-236.72728125
 30
0.0
 11
-633.9157365945
 21
-236.72728125
 31
0.0
  0
LINE
  5
97
330
1F
100
AcDbEntity
  8
0
  6
Continuous
 62
     7
370
    25
100
AcDbLine
 10
-493.9157365945
 20
518.27271875
 30
0.0
 11
-493.9157365945
 21
-281.72728125
 31
0.0
  0
LINE
  5
98
330
1F
100
AcDbEntity
  8
0
  6
Continuous
 62
     7
370
    25
100
AcDbLine
 10
-543.9157365945
 20
518.27271875
 30
0.0
 11
-543.9157365945
 21
-281.72728125
 31
0.0
  0
LINE
  5
99
330
1F
100
AcDbEntity
  8
0
  6
Continuous
 62
     7
370
    25
100
AcDbLine
 10
-633.9157365945
 20
473.27271875
 30
0.0
 11
-633.9157365945
 21
-236.72728125
 31
0.0
  0
LINE
  5
9A
330
1F
100
AcDbEntity
  8
0
  6
Continuous
 62
     7
370
    25
100
AcDbLine
 10
-915.9157365945
 20
473.27271875
 30
0.0
 11
-915.9157365945
 21
-236.72728125
 31
0.0
  0
LINE
  5
9B
330
1F
100
AcDbEntity
  8
0
  6
Continuous
 62
     7
370
    25
100
AcDbLine
 10
-264.0055913462
 20
-692.0966249511
 30
0.0
 11
-264.0055913462
 21
-742.0966249511
 31
0.0
  0
LINE
  5
9C
330
1F
100
AcDbEntity
  8
0
  6
Continuous
 62
     7
370
    25
100
AcDbLine
 10
535.9944086538
 20
-742.0966249511
 30
0.0
 11
535.9944086538
 21
-692.0966249511
 31
0.0
  0
LINE
  5
9D
330
1F
100
AcDbEntity
  8
0
  6
Continuous
 62
     7
370
    25
100
AcDbLine
 10
-234.0055913462
 20
-742.0966249511
 30
0.0
 11
-219.0055913462
 21
-832.0966249511
 31
0.0
  0
LINE
  5
9E
330
1F
100
AcDbEntity
  8
0
  6
Continuous
 62
     7
370
    25
100
AcDbLine
 10
490.9944086538
 20
-832.0966249511
 30
0.0
 11
505.9944086538
 21
-742.0966249511
 31
0.0
  0
LINE
  5
9F
330
1F
100
AcDbEntity
  8
0
  6
Continuous
 62
     7
370
    25
100
AcDbLine
 10
-219.0055913462
 20
-832.0966249511
 30
0.0
 11
-219.0055913462
 21
-1114.0966249511
 31
0.0
  0
LINE
  5
A0
330
1F
100
AcDbEntity
  8
0
  6
Continuous
 62
     7
370
    25
100
AcDbLine
 10
490.9944086538
 20
-1114.0966249511
 30
0.0
 11
490.9944086538
 21
-832.0966249511
 31
0.0
  0
LINE
  5
A1
330
1F
100
AcDbEntity
  8
0
  6
Continuous
 62
     7
370
    25
100
AcDbLine
 10
-264.0055913462
 20
-692.0966249511
 30
0.0
 11
535.9944086538
 21
-692.0966249511
 31
0.0
  0
LINE
  5
A2
330
1F
100
AcDbEntity
  8
0
  6
Continuous
 62
     7
370
    25
100
AcDbLine
 10
-264.0055913462
 20
-742.0966249511
 30
0.0
 11
535.9944086538
 21
-742.0966249511
 31
0.0
  0
LINE
  5
A3
330
1F
100
AcDbEntity
  8
0
  6
Continuous
 62
     7
370
    25
100
AcDbLine
 10
-219.0055913462
 20
-832.0966249511
 30
0.0
 11
490.9944086538
 21
-832.0966249511
 31
0.0
  0
LINE
  5
A4
330
1F
100
AcDbEntity
  8
0
  6
Continuous
 62
     7
370
    25
100
AcDbLine
 10
-219.0055913462
 20
-1114.0966249511
 30
0.0
 11
490.9944086538
 21
-1114.0966249511
 31
0.0
  0
LINE
  5
A5
330
1F
100
AcDbEntity
  8
0
  6
Continuous
 62
     7
370
    25
100
AcDbLine
 10
945.1171607905
 20
-281.72728125
 30
0.0
 11
995.1171607905
 21
-281.72728125
 31
0.0
  0
LINE
  5
A6
330
1F
100
AcDbEntity
  8
0
  6
Continuous
 62
     7
370
    25
100
AcDbLine
 10
995.1171607905
 20
518.27271875
 30
0.0
 11
945.1171607905
 21
518.27271875
 31
0.0
  0
LINE
  5
A7
330
1F
100
AcDbEntity
  8
0
  6
Continuous
 62
     7
370
    25
100
AcDbLine
 10
995.1171607905
 20
-251.72728125
 30
0.0
 11
1085.1171607905
 21
-236.72728125
 31
0.0
  0
LINE
  5
A8
330
1F
100
AcDbEntity
  8
0
  6
Continuous
 62
     7
370
    25
100
AcDbLine
 10
1085.1171607905
 20
473.27271875
 30
0.0
 11
995.1171607905
 21
488.27271875
 31
0.0
  0
LINE
  5
A9
330
1F
100
AcDbEntity
  8
0
  6
Continuous
 62
     7
370
    25
100
AcDbLine
 10
1085.1171607905
 20
-236.72728125
 30
0.0
 11
1367.1171607905
 21
-236.72728125
 31
0.0
  0
LINE
  5
AA
330
1F
100
AcDbEntity
  8
0
  6
Continuous
 62
     7
370
    25
100
AcDbLine
 10
1367.1171607905
 20
473.27271875
 30
0.0
 11
1085.1171607905
 21
473.27271875
 31
0.0
  0
LINE
  5
AB
330
1F
100
AcDbEntity
  8
0
  6
Continuous
 62
     7
370
    25
100
AcDbLine
 10
945.1171607905
 20
118.27271875
 30
0.0
 11
945.1171607905
 21
518.27271875
 31
0.0
  0
LINE
  5
AC
330
1F
100
AcDbEntity
  8
0
  6
Continuous
 62
     7
370
    25
100
AcDbLine
 10
945.1171607905
 20
-281.72728125
 30
0.0
 11
945.1171607905
 21
118.27271875
 31
0.0
  0
LINE
  5
AD
330
1F
100
AcDbEntity
  8
0
  6
Continuous
 62
     7
370
    25
100
AcDbLine
 10
995.1171607905
 20
118.27271875
 30
0.0
 11
995.1171607905
 21
518.27271875
 31
0.0
  0
LINE
  5
AE
330
1F
100
AcDbEntity
  8
0
  6
Continuous
 62
     7
370
    25
100
AcDbLine
 10
995.1171607905
 20
-281.72728125
 30
0.0
 11
995.1171607905
 21
118.27271875
 31
0.0
  0
LINE
  5
AF
330
1F
100
AcDbEntity
  8
0
  6
Continuous
 62
     7
370
    25
100
AcDbLine
 10
1085.1171607905
 20
118.27271875
 30
0.0
 11
1085.1171607905
 21
473.27271875
 31
0.0
  0
LINE
  5
B0
330
1F
100
AcDbEntity
  8
0
  6
Continuous
 62
     7
370
    25
100
AcDbLine
 10
1085.1171607905
 20
-236.72728125
 30
0.0
 11
1085.1171607905
 21
118.27271875
 31
0.0
  0
LINE
  5
B1
330
1F
100
AcDbEntity
  8
0
  6
Continuous
 62
     7
370
    25
100
AcDbLine
 10
1367.1171607905
 20
118.27271875
 30
0.0
 11
1367.1171607905
 21
473.27271875
 31
0.0
  0
LINE
  5
B2
330
1F
100
AcDbEntity
  8
0
  6
Continuous
 62
     7
370
    25
100
AcDbLine
 10
1367.1171607905
 20
-236.72728125
 30
0.0
 11
1367.1171607905
 21
118.27271875
 31
0.0
  0
LINE
  5
B3
330
1F
100
AcDbEntity
  8
0
  6
Continuous
 62
     7
370
    25
100
AcDbLine
 10
1332.7255369631
 20
-547.8037889413
 30
0.0
 11
1133.3214246685
 21
-432.6902451743
 31
0.0
  0
LINE
  5
B4
330
1F
100
AcDbEntity
  8
0
  6
Continuous
 62
     7
370
    25
100
AcDbLine
 10
778.3502745827
 20
-1047.5849374646
 30
0.0
 11
977.7543868773
 21
-1162.6984812316
 31
0.0
  0
LINE
  5
B5
330
1F
100
AcDbEntity
  8
0
  6
Continuous
 62
     7
370
    25
100
AcDbLine
 10
1380.7692153716
 20
-561.1964930717
 30
0.0
 11
1322.2279659157
 21
-541.7436701689
 31
0.0
  0
LINE
  5
B6
330
1F
100
AcDbEntity
  8
0
  6
Continuous
 62
     7
370
    25
100
AcDbLine
 10
967.2568158299
 20
-1156.6383624592
 30
0.0
 11
1013.3779238836
 21
-1197.6058324646
 31
0.0
  0
LINE
  5
B7
330
1F
100
AcDbEntity
  8
0
  6
Continuous
 62
     7
370
    25
100
AcDbLine
 10
1454.2186578135
 20
-565.9801579618
 30
0.0
 11
1418.8633187542
 21
-545.5699551662
 31
0.0
  0
LINE
  5
B8
330
1F
100
AcDbEntity
  8
0
  6
Continuous
 62
     7
370
    25
100
AcDbLine
 10
1018.8958256998
 20
-1238.4090450707
 30
0.0
 11
1054.2511647591
 21
-1258.8192478663
 31
0.0
  0
LWPOLYLINE
  5
B9
330
1F
100
AcDbEntity
  8
0
  6
Continuous
 62
     7
370
    25
100
AcDbPolyline
 90
      102
 70
   128
 43
0.0
 10
1332.7255369631
 20
-547.8037889413
 10
1332.7399619202
 20
-547.8121176453
 10
1338.2277861215
 20
-551.1834820884
 10
1343.5350234327
 20
-554.8549245944
 10
1348.6564362513
 20
-558.822821893
 10
1353.5869703612
 20
-563.0832581484
 10
1358.3217599205
 20
-567.6320288246
 10
1362.8561322635
 20
-572.4646448339
 10
1367.1856125122
 20
-577.5763369679
 10
1371.3059279923
 20
-582.9620606035
 10
1375.2130124498
 20
-588.6165006818
 10
1378.9030100641
 20
-594.5340769531
 10
1382.3722792531
 20
-600.708949484
 10
1385.6173962669
 20
-607.1350244208
 10
1388.6351585668
 20
-613.8059600035
 10
1391.4225879857
 20
-620.7151728239
 10
1393.9769336674
 20
-627.8558443232
 10
1396.295674781
 20
-635.2209275207
 10
1398.3765230091
 20
-642.8031539686
 10
1400.2174248056
 20
-650.5950409246
 10
1401.8165634227
 20
-658.5888987371
 10
1403.1723607037
 20
-666.7768384336
 10
1404.2834786403
 20
-675.1507795061
 10
1405.1488206933
 20
-683.7024578858
 10
1405.7675328745
 20
-692.4234340986
 10
1406.1390045898
 20
-701.3051015938
 10
1406.2628692414
 20
-710.3386952379
 10
1406.1390045898
 20
-719.5152999647
 10
1405.7675328745
 20
-728.8258595732
 10
1405.1488206933
 20
-738.261185665
 10
1404.2834786403
 20
-747.8119667126
 10
1403.1723607037
 20
-757.4687772481
 10
1401.8165634227
 20
-767.2220871654
 10
1400.2174248056
 20
-777.0622711251
 10
1398.3765230091
 20
-786.9796180536
 10
1396.295674781
 20
-796.964340727
 10
1393.9769336674
 20
-807.0065854293
 10
1391.4225879857
 20
-817.0964416776
 10
1388.6351585668
 20
-827.2239520017
 10
1385.6173962669
 20
-837.3791217718
 10
1382.3722792531
 20
-847.5519290613
 10
1378.9030100641
 20
-857.7323345376
 10
1375.2130124498
 20
-867.9102913696
 10
1371.3059279923
 20
-878.0757551427
 10
1367.1856125122
 20
-888.2186937715
 10
1362.8561322635
 20
-898.3290974001
 10
1358.3217599205
 20
-908.3969882807
 10
1353.5869703612
 20
-918.4124306207
 10
1348.6564362513
 20
-928.3655403874
 10
1343.5350234327
 20
-938.2464950634
 10
1338.2277861215
 20
-948.0455433392
 10
1332.7399619202
 20
-957.7530147373
 10
1327.0769666487
 20
-967.3593291553
 10
1321.2443889998
 20
-976.8550063208
 10
1315.2479850232
 20
-986.2306751468
 10
1309.0936724458
 20
-995.4770829801
 10
1302.7875248312
 20
-1004.5851047325
 10
1296.3357655856
 20
-1013.5457518862
 10
1289.7447618164
 20
-1022.3501813643
 10
1283.0210180488
 20
-1030.9897042578
 10
1276.1711698059
 20
-1039.4557944007
 10
1269.201977061
 20
-1047.7400967841
 10
1262.120317566
 20
-1055.8344358018
 10
1254.9331800638
 20
-1063.7308233185
 10
1247.6476573914
 20
-1071.4214665529
 10
1240.2709394801
 20
-1078.8987757687
 10
1232.8103062599
 20
-1086.1553717645
 10
1225.2731204749
 20
-1093.184093156
 10
1217.6668204177
 20
-1099.978003444
 10
1209.998912588
 20
-1106.5303978591
 10
1202.2769642852
 20
-1112.8348099791
 10
1194.5085961398
 20
-1118.8850181105
 10
1186.7014745935
 20
-1124.6750514283
 10
1178.8633043325
 20
-1130.1991958686
 10
1171.0018206846
 20
-1135.4519997678
 10
1163.1247819851
 20
-1140.4282792425
 10
1155.2399619202
 20
-1145.1231233059
 10
1147.3551418552
 20
-1149.5318987135
 10
1139.4781031557
 20
-1153.6502545365
 10
1131.6166195079
 20
-1157.4741264546
 10
1123.7784492469
 20
-1160.9997407681
 10
1115.9713277005
 20
-1164.2236181213
 10
1108.2029595552
 20
-1167.1425769364
 10
1100.4810112524
 20
-1169.7537365536
 10
1092.8131034227
 20
-1172.0545200734
 10
1085.2068033655
 20
-1174.0426569004
 10
1077.6696175805
 20
-1175.7161849835
 10
1070.2089843603
 20
-1177.0734527526
 10
1062.832266449
 20
-1178.1131207483
 10
1055.5467437766
 20
-1178.8341629436
 10
1048.3596062744
 20
-1179.2358677572
 10
1041.2779467794
 20
-1179.3178387547
 10
1034.3087540345
 20
-1179.0799950408
 10
1027.4589057916
 20
-1178.5225713385
 10
1020.7351620239
 20
-1177.6461177575
 10
1014.1441582548
 20
-1176.451499252
 10
1007.6923990092
 20
-1174.9398947659
 10
1001.3862513945
 20
-1173.1127960706
 10
995.2319388172
 20
-1170.9720062917
 10
989.2355348406
 20
-1168.5196381305
 10
983.4029571916
 20
-1165.7581117781
 10
977.7543868773
 20
-1162.6984812316
  0
LWPOLYLINE
  5
BA
330
1F
100
AcDbEntity
  8
0
  6
Continuous
 62
     7
370
    25
100
AcDbPolyline
 90
      201
 70
   128
 43
0.0
 10
704.8129423044
 20
-885.050031168
 10
704.9368069559
 20
-875.8734264412
 10
705.3082786712
 20
-866.5628668327
 10
705.9269908525
 20
-857.1275407409
 10
706.7923329055
 20
-847.5767596933
 10
707.9034508421
 20
-837.9199491578
 10
709.2592481231
 20
-828.1666392405
 10
710.8583867402
 20
-818.3264552808
 10
712.6992885367
 20
-808.4091083523
 10
714.7801367647
 20
-798.4243856789
 10
717.0988778784
 20
-788.3821409766
 10
719.6532235601
 20
-778.2922847283
 10
722.440652979
 20
-768.1647744042
 10
725.4584152789
 20
-758.0096046341
 10
728.7035322927
 20
-747.8367973446
 10
732.1728014816
 20
-737.6563918683
 10
735.862799096
 20
-727.4784350363
 10
739.7698835535
 20
-717.3129712632
 10
743.8901990336
 20
-707.1700326344
 10
748.2196792823
 20
-697.0596290058
 10
752.7540516253
 20
-686.9917381252
 10
757.4888411846
 20
-676.9762957852
 10
762.4193752945
 20
-667.0231860185
 10
767.5407881131
 20
-657.1422313425
 10
772.8480254243
 20
-647.3431830667
 10
778.3358496256
 20
-637.6357116686
 10
783.998844897
 20
-628.0293972506
 10
789.831422546
 20
-618.5337200851
 10
795.8278265226
 20
-609.1580512591
 10
801.9821390999
 20
-599.9116434258
 10
808.2882867146
 20
-590.8036216734
 10
814.7400459602
 20
-581.8429745197
 10
821.3310497293
 20
-573.0385450416
 10
828.054793497
 20
-564.3990221481
 10
834.9046417399
 20
-555.9329320052
 10
841.8738344847
 20
-547.6486296218
 10
848.9554939797
 20
-539.5542906041
 10
856.1426314819
 20
-531.6579030874
 10
863.4281541544
 20
-523.967259853
 10
870.8048720657
 20
-516.4899506372
 10
878.2655052859
 20
-509.2333546414
 10
885.8026910709
 20
-502.2046332499
 10
893.4089911281
 20
-495.4107229619
 10
901.0768989577
 20
-488.8583285468
 10
908.7988472606
 20
-482.5539164268
 10
916.5672154059
 20
-476.5037082954
 10
924.3743369523
 20
-470.7136749776
 10
932.2125072133
 20
-465.1895305373
 10
940.0739908611
 20
-459.9367266381
 10
947.9510295606
 20
-454.9604471634
 10
955.8358496256
 20
-450.2656031
 10
963.7206696905
 20
-445.8568276924
 10
971.59770839
 20
-441.7384718694
 10
979.4591920379
 20
-437.9145999513
 10
987.2973622989
 20
-434.3889856378
 10
995.1044838452
 20
-431.1651082846
 10
1002.8728519906
 20
-428.2461494695
 10
1010.5948002934
 20
-425.6349898523
 10
1018.2627081231
 20
-423.3342063325
 10
1025.8690081803
 20
-421.3460695055
 10
1033.4061939652
 20
-419.6725414224
 10
1040.8668271855
 20
-418.3152736533
 10
1048.2435450968
 20
-417.2756056576
 10
1055.5290677692
 20
-416.5545634623
 10
1062.7162052714
 20
-416.1528586487
 10
1069.7978647664
 20
-416.0708876512
 10
1076.7670575113
 20
-416.3087313651
 10
1083.6169057542
 20
-416.8661550674
 10
1090.3406495218
 20
-417.7426086484
 10
1096.931653291
 20
-418.9372271539
 10
1103.3834125366
 20
-420.44883164
 10
1109.6895601512
 20
-422.2759303353
 10
1115.8438727286
 20
-424.4167201142
 10
1121.8402767051
 20
-426.8690882754
 10
1127.6728543541
 20
-429.6306146278
 10
1133.3358496256
 20
-432.6985738783
 10
1138.8236738269
 20
-436.0699383214
 10
1144.1309111381
 20
-439.7413808274
 10
1149.2523239567
 20
-443.709278126
 10
1154.1828580666
 20
-447.9697143814
 10
1158.9176476259
 20
-452.5184850576
 10
1163.4520199689
 20
-457.3511010669
 10
1167.7815002176
 20
-462.4627932009
 10
1171.9018156977
 20
-467.8485168365
 10
1175.8089001552
 20
-473.5029569148
 10
1179.4988977695
 20
-479.4205331861
 10
1182.9681669585
 20
-485.595405717
 10
1186.2132839723
 20
-492.0214806538
 10
1189.2310462722
 20
-498.6924162365
 10
1192.0184756911
 20
-505.6016290569
 10
1194.5728213728
 20
-512.7423005562
 10
1196.8915624864
 20
-520.1073837537
 10
1198.9724107145
 20
-527.6896102016
 10
1200.813312511
 20
-535.4814971576
 10
1202.4124511281
 20
-543.4753549701
 10
1203.7682484091
 20
-551.6632946666
 10
1204.8793663457
 20
-560.0372357391
 10
1205.7447083987
 20
-568.5889141188
 10
1206.3634205799
 20
-577.3098903316
 10
1206.7348922952
 20
-586.1915578268
 10
1206.8587569468
 20
-595.2251514709
 10
1206.7348922952
 20
-604.4017561977
 10
1206.3634205799
 20
-613.7123158062
 10
1205.7447083987
 20
-623.147641898
 10
1204.8793663457
 20
-632.6984229456
 10
1203.7682484091
 20
-642.3552334811
 10
1202.4124511281
 20
-652.1085433984
 10
1200.813312511
 20
-661.9487273581
 10
1198.9724107145
 20
-671.8660742866
 10
1196.8915624864
 20
-681.85079696
 10
1194.5728213728
 20
-691.8930416623
 10
1192.0184756911
 20
-701.9828979106
 10
1189.2310462722
 20
-712.1104082347
 10
1186.2132839723
 20
-722.2655780048
 10
1182.9681669585
 20
-732.4383852943
 10
1179.4988977695
 20
-742.6187907706
 10
1175.8089001552
 20
-752.7967476026
 10
1171.9018156977
 20
-762.9622113757
 10
1167.7815002176
 20
-773.1051500045
 10
1163.4520199689
 20
-783.2155536331
 10
1158.9176476259
 20
-793.2834445137
 10
1154.1828580666
 20
-803.2988868537
 10
1149.2523239567
 20
-813.2519966204
 10
1144.1309111381
 20
-823.1329512964
 10
1138.8236738269
 20
-832.9319995722
 10
1133.3358496256
 20
-842.6394709703
 10
1127.6728543541
 20
-852.2457853883
 10
1121.8402767051
 20
-861.7414625538
 10
1115.8438727286
 20
-871.1171313798
 10
1109.6895601512
 20
-880.3635392131
 10
1103.3834125366
 20
-889.4715609655
 10
1096.931653291
 20
-898.4322081192
 10
1090.3406495218
 20
-907.2366375973
 10
1083.6169057542
 20
-915.8761604908
 10
1076.7670575113
 20
-924.3422506337
 10
1069.7978647664
 20
-932.6265530171
 10
1062.7162052714
 20
-940.7208920348
 10
1055.5290677692
 20
-948.6172795515
 10
1048.2435450968
 20
-956.3079227859
 10
1040.8668271855
 20
-963.7852320017
 10
1033.4061939652
 20
-971.0418279974
 10
1025.8690081803
 20
-978.070549389
 10
1018.2627081231
 20
-984.864459677
 10
1010.5948002934
 20
-991.4168540921
 10
1002.8728519906
 20
-997.7212662121
 10
995.1044838452
 20
-1003.7714743435
 10
987.2973622989
 20
-1009.5615076613
 10
979.4591920379
 20
-1015.0856521016
 10
971.59770839
 20
-1020.3384560007
 10
963.7206696905
 20
-1025.3147354755
 10
955.8358496256
 20
-1030.0095795389
 10
947.9510295606
 20
-1034.4183549465
 10
940.0739908611
 20
-1038.5367107694
 10
932.2125072133
 20
-1042.3605826876
 10
924.3743369523
 20
-1045.8861970011
 10
916.5672154059
 20
-1049.1100743543
 10
908.7988472606
 20
-1052.0290331694
 10
901.0768989577
 20
-1054.6401927866
 10
893.4089911281
 20
-1056.9409763064
 10
885.8026910708
 20
-1058.9291131334
 10
878.2655052859
 20
-1060.6026412165
 10
870.8048720657
 20
-1061.9599089856
 10
863.4281541543
 20
-1062.9995769812
 10
856.1426314819
 20
-1063.7206191766
 10
848.9554939797
 20
-1064.1223239902
 10
841.8738344847
 20
-1064.2042949877
 10
834.9046417399
 20
-1063.9664512738
 10
828.054793497
 20
-1063.4090275715
 10
821.3310497293
 20
-1062.5325739905
 10
814.7400459602
 20
-1061.337955485
 10
808.2882867146
 20
-1059.8263509989
 10
801.9821390999
 20
-1057.9992523036
 10
795.8278265226
 20
-1055.8584625247
 10
789.831422546
 20
-1053.4060943635
 10
783.998844897
 20
-1050.6445680111
 10
778.3358496256
 20
-1047.5766087606
 10
772.8480254243
 20
-1044.2052443175
 10
767.5407881131
 20
-1040.5338018115
 10
762.4193752945
 20
-1036.5659045129
 10
757.4888411846
 20
-1032.3054682575
 10
752.7540516253
 20
-1027.7566975813
 10
748.2196792823
 20
-1022.924081572
 10
743.8901990336
 20
-1017.812389438
 10
739.7698835535
 20
-1012.4266658024
 10
735.862799096
 20
-1006.7722257241
 10
732.1728014816
 20
-1000.8546494528
 10
728.7035322927
 20
-994.6797769219
 10
725.4584152789
 20
-988.2537019851
 10
722.440652979
 20
-981.5827664024
 10
719.6532235601
 20
-974.673553582
 10
717.0988778784
 20
-967.5328820827
 10
714.7801367647
 20
-960.1677988852
 10
712.6992885367
 20
-952.5855724373
 10
710.8583867402
 20
-944.7936854813
 10
709.2592481231
 20
-936.7998276688
 10
707.9034508421
 20
-928.6118879723
 10
706.7923329055
 20
-920.2379468998
 10
705.9269908525
 20
-911.6862685201
 10
705.3082786712
 20
-902.9652923073
 10
704.9368069559
 20
-894.0836248121
 10
704.8129423044
 20
-885.050031168
  0
LWPOLYLINE
  5
BB
330
1F
100
AcDbEntity
  8
0
  6
Continuous
 62
     7
370
    25
100
AcDbPolyline
 90
      188
 70
   128
 43
0.0
 10
734.5821377923
 20
-867.8646404141
 10
734.7070187541
 20
-859.2095305965
 10
735.0815206676
 20
-850.4200065973
 10
735.705220777
 20
-841.5059904578
 10
736.5774150193
 20
-832.4775447516
 10
737.6971188193
 20
-823.3448612264
 10
739.0630682012
 20
-814.1182492983
 10
740.6737212149
 20
-804.8081244145
 10
742.5272596772
 20
-795.4249962956
 10
744.6215912239
 20
-785.9794570718
 10
746.954351672
 20
-776.4821693261
 10
749.5229076884
 20
-766.9438540576
 10
752.3243597624
 20
-757.3752785792
 10
755.355545479
 20
-747.7872443632
 10
758.6130430887
 20
-738.1905748478
 10
762.0931753702
 20
-728.596103219
 10
765.7920137813
 20
-719.0146601819
 10
769.7053828938
 20
-709.4570617342
 10
773.8288651068
 20
-699.9340969567
 10
778.1578056336
 20
-690.4565158339
 10
782.687317756
 20
-681.0350171194
 10
787.412288341
 20
-671.6802362578
 10
792.3273836126
 20
-662.4027333796
 10
797.4270551729
 20
-653.2129813802
 10
802.7055462652
 20
-644.1213540974
 10
808.1568982726
 20
-635.1381146011
 10
813.7749574445
 20
-626.273403608
 10
819.5533818433
 20
-617.5372280338
 10
825.4856485031
 20
-608.9394496973
 10
831.5650607936
 20
-600.4897741878
 10
837.7847559791
 20
-592.197739909
 10
844.1377129662
 20
-584.0727073113
 10
850.6167602286
 20
-576.1238483258
 10
857.2145839036
 20
-568.3601360101
 10
863.9237360476
 20
-560.7903344193
 10
870.7366430444
 20
-553.4229887127
 10
877.645614154
 20
-546.2664155075
 10
884.6428501945
 20
-539.3286934907
 10
891.7204523465
 20
-532.6176542995
 10
898.8704310694
 20
-526.1408736805
 10
906.0847151203
 20
-519.9056629379
 10
913.3551606654
 20
-513.91906068
 10
920.673560473
 20
-508.1878248739
 10
928.0316531784
 20
-502.7184252167
 10
935.4211326096
 20
-497.5170358319
 10
942.8336571637
 20
-492.5895283003
 10
950.2608592235
 20
-487.9414650314
 10
957.6943546028
 20
-483.5780929845
 10
965.1257520116
 20
-479.5043377456
 10
972.546662528
 20
-475.7247979674
 10
979.948709068
 20
-472.2437401776
 10
987.3235358425
 20
-469.0650939631
 10
994.6628177893
 20
-466.1924475341
 10
1001.9582699708
 20
-463.6290436731
 10
1009.2016569267
 20
-461.3777760748
 10
1016.3848019704
 20
-459.4411860792
 10
1023.4995964194
 20
-457.8214598032
 10
1030.5380087484
 20
-456.5204256723
 10
1037.4920936562
 20
-455.5395523569
 10
1044.3540010344
 20
-454.8799471145
 10
1051.1159848291
 20
-454.5423545393
 10
1057.7704117849
 20
-454.5271557224
 10
1064.3097700618
 20
-454.8343678209
 10
1070.726677715
 20
-455.4636440388
 10
1077.0138910278
 20
-456.4142740186
 10
1083.1643126889
 20
-457.6851846431
 10
1089.1709998038
 20
-459.2749412467
 10
1095.0271717328
 20
-461.181749235
 10
1100.7262177448
 20
-463.4034561108
 10
1106.2617044804
 20
-465.9375539034
 10
1111.6273832135
 20
-468.7811820003
 10
1116.8171969056
 20
-471.9311303763
 10
1121.8252870433
 20
-475.3838432167
 10
1126.6460002515
 20
-479.1354229318
 10
1131.2738946752
 20
-483.1816345565
 10
1135.7037461228
 20
-487.5179105307
 10
1139.930553963
 20
-492.1393558558
 10
1143.94954677
 20
-497.0407536201
 10
1147.7561877098
 20
-502.2165708881
 10
1151.3461796615
 20
-507.660964946
 10
1154.715470068
 20
-513.3677898977
 10
1157.8602555107
 20
-519.3306036025
 10
1160.7769860034
 20
-525.5426749469
 10
1163.4623689992
 20
-531.9969914434
 10
1165.9133731074
 20
-538.6862671465
 10
1168.1272315157
 20
-545.6029508772
 10
1170.1014451134
 20
-552.7392347474
 10
1171.8337853124
 20
-560.0870629736
 10
1173.3222965629
 20
-567.638140971
 10
1174.5652985613
 20
-575.3839447162
 10
1175.5613881467
 20
-583.3157303704
 10
1176.3094408848
 20
-591.424544149
 10
1176.8086123374
 20
-599.7012324296
 10
1177.0583390154
 20
-608.1364520851
 10
1177.0583390154
 20
-616.7206810303
 10
1176.8086123374
 20
-625.4442289711
 10
1176.3094408848
 20
-634.2972483433
 10
1175.5613881467
 20
-643.2697454293
 10
1174.5652985613
 20
-652.351591639
 10
1173.3222965629
 20
-661.5325349438
 10
1171.8337853124
 20
-670.8022114496
 10
1170.1014451134
 20
-680.1501570959
 10
1168.1272315157
 20
-689.565819468
 10
1165.9133731074
 20
-699.0385697096
 10
1163.4623689992
 20
-708.5577145205
 10
1160.7769860034
 20
-718.1125082284
 10
1157.8602555107
 20
-727.6921649186
 10
1154.715470068
 20
-737.2858706099
 10
1151.3461796615
 20
-746.8827954619
 10
1147.7561877098
 20
-756.4721060001
 10
1143.94954677
 20
-766.0429773458
 10
1139.930553963
 20
-775.5846054351
 10
1135.7037461228
 20
-785.0862192151
 10
1131.2738946752
 20
-794.5370928034
 10
1126.6460002515
 20
-803.9265575954
 10
1121.8252870433
 20
-813.2440143077
 10
1116.8171969056
 20
-822.4789449432
 10
1111.6273832135
 20
-831.6209246641
 10
1106.2617044804
 20
-840.6596335602
 10
1100.7262177448
 20
-849.5848682985
 10
1095.0271717328
 20
-858.386553641
 10
1089.1709998038
 20
-867.0547538183
 10
1083.1643126889
 20
-875.5796837455
 10
1077.0138910278
 20
-883.9517200681
 10
1070.726677715
 20
-892.1614120254
 10
1064.3097700618
 20
-900.1994921189
 10
1057.7704117849
 20
-908.0568865737
 10
1051.1159848291
 20
-915.7247255819
 10
1044.3540010344
 20
-923.1943533147
 10
1037.4920936562
 20
-930.4573376941
 10
1030.5380087484
 20
-937.5054799109
 10
1023.4995964194
 20
-944.3308236803
 10
1016.3848019704
 20
-950.925664223
 10
1009.2016569267
 20
-957.2825569632
 10
1001.9582699708
 20
-963.394325932
 10
994.6628177893
 20
-969.254071868
 10
987.3235358425
 20
-974.8551800057
 10
979.948709068
 20
-980.1913275426
 10
972.546662528
 20
-985.2564907765
 10
965.1257520116
 20
-990.0449519054
 10
957.6943546028
 20
-994.551305482
 10
950.2608592235
 20
-998.7704645158
 10
942.8336571637
 20
-1002.6976662154
 10
935.4211326096
 20
-1006.3284773651
 10
928.0316531784
 20
-1009.658799329
 10
920.6735604729
 20
-1012.6848726782
 10
913.3551606653
 20
-1015.4032814342
 10
906.0847151203
 20
-1017.8109569255
 10
898.8704310694
 20
-1019.905181251
 10
891.7204523465
 20
-1021.6835903488
 10
884.6428501945
 20
-1023.1441766644
 10
877.645614154
 20
-1024.2852914171
 10
870.7366430444
 20
-1025.1056464613
 10
863.9237360476
 20
-1025.6043157403
 10
857.2145839036
 20
-1025.7807363321
 10
850.6167602286
 20
-1025.6347090845
 10
844.1377129662
 20
-1025.1663988403
 10
837.7847559791
 20
-1024.3763342506
 10
831.5650607936
 20
-1023.2654071789
 10
825.4856485031
 20
-1021.8348716933
 10
819.5533818433
 20
-1020.0863426519
 10
813.7749574445
 20
-1018.0217938789
 10
808.1568982726
 20
-1015.6435559373
 10
802.7055462652
 20
-1012.9543134973
 10
797.4270551729
 20
-1009.9571023064
 10
792.3273836126
 20
-1006.6553057618
 10
787.412288341
 20
-1003.0526510917
 10
782.687317756
 20
-999.1532051475
 10
778.1578056336
 20
-994.9613698129
 10
773.8288651068
 20
-990.4818770351
 10
769.7053828938
 20
-985.7197834827
 10
765.7920137813
 20
-980.680464838
 10
762.0931753702
 20
-975.3696097283
 10
758.6130430887
 20
-969.7932133046
 10
755.355545479
 20
-963.9575704736
 10
752.3243597624
 20
-957.8692687921
 10
749.5229076884
 20
-951.5351810304
 10
746.954351672
 20
-944.962457414
 10
744.6215912239
 20
-938.1585175522
 10
742.5272596772
 20
-931.1310420624
 10
740.6737212149
 20
-923.8879638998
 10
739.0630682012
 20
-916.4374594025
 10
737.6971188193
 20
-908.7879390613
 10
736.5774150193
 20
-900.948038026
 10
735.705220777
 20
-892.9266063571
 10
735.0815206676
 20
-884.7326990358
 10
734.7070187541
 20
-876.3755657424
 10
734.5821377923
 20
-867.8646404141
  0
LWPOLYLINE
  5
BC
330
1F
100
AcDbEntity
  8
0
  6
Continuous
 62
     7
370
    25
100
AcDbPolyline
 90
       38
 70
   128
 43
0.0
 10
993.2215802357
 20
-970.3770694632
 10
994.5271357525
 20
-961.594516375
 10
996.1377887662
 20
-952.2843914912
 10
997.9913272285
 20
-942.9012633723
 10
1000.0856587752
 20
-933.4557241486
 10
1002.4184192233
 20
-923.9584364029
 10
1004.9869752397
 20
-914.4201211343
 10
1007.7884273137
 20
-904.851545656
 10
1010.8196130303
 20
-895.26351144
 10
1014.07711064
 20
-885.6668419246
 10
1017.5572429215
 20
-876.0723702958
 10
1021.2560813326
 20
-866.4909272587
 10
1025.1694504451
 20
-856.933328811
 10
1029.2929326581
 20
-847.4103640334
 10
1033.6218731849
 20
-837.9327829107
 10
1038.1513853073
 20
-828.5112841961
 10
1042.8763558923
 20
-819.1565033345
 10
1047.7914511639
 20
-809.8790004564
 10
1052.8911227242
 20
-800.6892484569
 10
1058.1696138165
 20
-791.5976211741
 10
1063.6209658239
 20
-782.6143816779
 10
1069.2390249958
 20
-773.7496706848
 10
1075.0174493946
 20
-765.0134951106
 10
1080.9497160544
 20
-756.4157167741
 10
1087.0291283449
 20
-747.9660412646
 10
1093.2488235304
 20
-739.6740069857
 10
1099.6017805175
 20
-731.5489743881
 10
1106.0808277799
 20
-723.6001154026
 10
1112.6786514549
 20
-715.8364030869
 10
1119.387803599
 20
-708.2666014961
 10
1126.2007105957
 20
-700.8992557895
 10
1133.1096817053
 20
-693.7426825842
 10
1140.1069177458
 20
-686.8049605674
 10
1147.1845198978
 20
-680.0939213762
 10
1154.3344986207
 20
-673.6171407572
 10
1161.5487826716
 20
-667.3819300146
 10
1168.8192282167
 20
-661.3953277568
 10
1173.9141865668
 20
-657.3743802524
  0
LWPOLYLINE
  5
BD
330
1F
100
AcDbEntity
  8
0
  6
Continuous
 62
     7
370
    25
100
AcDbPolyline
 90
      112
 70
   128
 43
0.0
 10
1380.7692153716
 20
-561.1964930717
 10
1382.9013397679
 20
-561.9258478089
 10
1389.1005186812
 20
-564.2915497286
 10
1395.138232716
 20
-566.968093004
 10
1401.0087547347
 20
-569.9529387716
 10
1406.7065161916
 20
-573.2432557245
 10
1412.2261124149
 20
-576.8359227977
 10
1417.5623077332
 20
-580.7275321289
 10
1422.710040442
 20
-584.9143922909
 10
1427.664427605
 20
-589.3925317931
 10
1432.4207696859
 20
-594.1577028492
 10
1436.9745550061
 20
-599.2053854055
 10
1441.3214640245
 20
-604.5307914296
 10
1445.4573734344
 20
-610.1288694512
 10
1449.3783600754
 20
-615.9943093542
 10
1453.080704654
 20
-622.1215474135
 10
1456.5608952721
 20
-628.5047715728
 10
1459.8156307582
 20
-635.1379269572
 10
1462.8418237986
 20
-642.0147216172
 10
1465.6366038657
 20
-649.1286324963
 10
1468.1973199414
 20
-656.4729116192
 10
1470.5215430314
 20
-664.0405924924
 10
1472.6070684694
 20
-671.824496712
 10
1474.451918008
 20
-679.8172407735
 10
1476.0543416958
 20
-688.0112430749
 10
1477.4128195369
 20
-696.3987311088
 10
1478.5260629327
 20
-704.9717488346
 10
1479.3930159044
 20
-713.7221642258
 10
1480.0128560947
 20
-722.6416769833
 10
1480.3849955475
 20
-731.7218264091
 10
1480.509081266
 20
-740.9539994313
 10
1480.3849955475
 20
-750.3294387746
 10
1480.0128560947
 20
-759.8392512669
 10
1479.3930159044
 20
-769.474416275
 10
1478.5260629327
 20
-779.2257942613
 10
1477.4128195369
 20
-789.084135453
 10
1476.0543416958
 20
-799.0400886164
 10
1474.451918008
 20
-809.0842099269
 10
1472.6070684694
 20
-819.206971927
 10
1470.5215430314
 20
-829.3987725638
 10
1468.1973199414
 20
-839.649944297
 10
1465.6366038657
 20
-849.9507632692
 10
1462.8418237986
 20
-860.2914585298
 10
1459.8156307582
 20
-870.6622213029
 10
1456.5608952721
 20
-881.0532142917
 10
1453.080704654
 20
-891.4545810102
 10
1449.3783600754
 20
-901.8564551318
 10
1445.4573734344
 20
-912.2489698489
 10
1441.3214640245
 20
-922.6222672318
 10
1436.9745550061
 20
-932.9665075796
 10
1432.4207696859
 20
-943.2718787536
 10
1427.664427605
 20
-953.5286054852
 10
1422.710040442
 20
-963.7269586478
 10
1417.5623077332
 20
-973.8572644855
 10
1412.2261124149
 20
-983.9099137898
 10
1406.7065161916
 20
-993.8753710137
 10
1401.0087547347
 20
-1003.7441833176
 10
1395.138232716
 20
-1013.5069895351
 10
1389.1005186812
 20
-1023.1545290531
 10
1382.9013397679
 20
-1032.6776505961
 10
1376.5465762728
 20
-1042.0673209065
 10
1370.0422560739
 20
-1051.3146333131
 10
1363.394548913
 20
-1060.4108161801
 10
1356.6097605429
 20
-1069.3472412269
 10
1349.6943267465
 20
-1078.1154317132
 10
1342.6548072315
 20
-1086.7070704791
 10
1335.4978794087
 20
-1095.1140078348
 10
1328.2303320575
 20
-1103.3282692911
 10
1320.8590588869
 20
-1111.3420631233
 10
1313.391051996
 20
-1119.1477877626
 10
1305.8333952416
 20
-1126.7380390063
 10
1298.193257519
 20
-1134.1056170414
 10
1290.4778859617
 20
-1141.2435332739
 10
1282.6945990668
 20
-1148.1450169577
 10
1274.8507797535
 20
-1154.8035216177
 10
1266.9538683595
 20
-1161.2127312588
 10
1259.0113555836
 20
-1167.3665663574
 10
1251.0307753802
 20
-1173.2591896282
 10
1243.0196978132
 20
-1178.8850115611
 10
1234.9857218748
 20
-1184.2386957231
 10
1226.9364682779
 20
-1189.3151638207
 10
1218.879572227
 20
-1194.1096005162
 10
1210.8226761761
 20
-1198.6174579961
 10
1202.7734225792
 20
-1202.8344602845
 10
1194.7394466408
 20
-1206.7566072993
 10
1186.7283690737
 20
-1210.3801786465
 10
1178.7477888704
 20
-1213.7017371491
 10
1170.8052760945
 20
-1216.7181321077
 10
1162.9083647005
 20
-1219.426502289
 10
1155.0645453871
 20
-1221.8242786398
 10
1147.2812584923
 20
-1223.909186724
 10
1139.5658869349
 20
-1225.6792488801
 10
1131.9257492123
 20
-1227.1327860967
 10
1124.368092458
 20
-1228.2684196059
 10
1116.9000855671
 20
-1229.0850721904
 10
1109.5288123965
 20
-1229.5819692058
 10
1102.2612650453
 20
-1229.7586393152
 10
1095.1043372224
 20
-1229.6149149363
 10
1088.0648177075
 20
-1229.1509324004
 10
1081.149383911
 20
-1228.367131823
 10
1074.364595541
 20
-1227.2642566864
 10
1067.71688838
 20
-1225.8433531346
 10
1061.2125681812
 20
-1224.1057689805
 10
1054.857804686
 20
-1222.053152428
 10
1048.6586257727
 20
-1219.6874505083
 10
1042.620911738
 20
-1217.0109072329
 10
1036.7503897193
 20
-1214.0260614653
 10
1031.0526282624
 20
-1210.7357445124
 10
1025.5330320391
 20
-1207.1430774392
 10
1020.1968367208
 20
-1203.251468108
 10
1015.049104012
 20
-1199.0646079461
 10
1013.3779238836
 20
-1197.6058324646
  0
LWPOLYLINE
  5
BE
330
1F
100
AcDbEntity
  8
0
  6
Continuous
 62
     7
370
    25
100
AcDbPolyline
 90
      108
 70
   128
 43
0.0
 10
1454.2186578135
 20
-565.9801579618
 10
1457.1766100889
 20
-567.7390168091
 10
1462.9256772845
 20
-571.4646208501
 10
1468.4914457493
 20
-575.4896773728
 10
1473.8690269187
 20
-579.8106510616
 10
1479.0536975182
 20
-584.4237466888
 10
1484.0409037115
 20
-589.3249124478
 10
1488.8262651009
 20
-594.5098435127
 10
1493.4055785745
 20
-599.9739858185
 10
1497.7748219975
 20
-605.7125400616
 10
1501.9301577457
 20
-611.7204659151
 10
1505.8679360755
 20
-617.9924864554
 10
1509.58469833
 20
-624.5230927978
 10
1513.0771799766
 20
-631.3065489344
 10
1516.3423134744
 20
-638.3368967728
 10
1519.3772309685
 20
-645.6079613686
 10
1522.1792668091
 20
-653.1133563498
 10
1524.7459598925
 20
-660.8464895253
 10
1527.0750558228
 20
-668.8005686756
 10
1529.1645088923
 20
-676.9686075184
 10
1531.0124838779
 20
-685.3434318448
 10
1532.6173576535
 20
-693.9176858207
 10
1533.9777206149
 20
-702.6838384473
 10
1535.0923779188
 20
-711.6341901763
 10
1535.9603505315
 20
-720.7608796722
 10
1536.5808760893
 20
-730.0558907175
 10
1536.9534095679
 20
-739.5110592532
 10
1537.0776237609
 20
-749.1180805495
 10
1536.9534095679
 20
-758.8685165005
 10
1536.5808760893
 20
-768.7538030351
 10
1535.9603505315
 20
-778.7652576395
 10
1535.0923779188
 20
-788.894086983
 10
1533.9777206149
 20
-799.1313946414
 10
1532.6173576535
 20
-809.4681889113
 10
1531.0124838779
 20
-819.8953907072
 10
1529.1645088923
 20
-830.4038415365
 10
1527.0750558228
 20
-840.9843115434
 10
1524.7459598925
 20
-851.6275076154
 10
1522.1792668091
 20
-862.3240815463
 10
1519.3772309685
 20
-873.0646382467
 10
1516.3423134744
 20
-883.8397439957
 10
1513.0771799766
 20
-894.6399347272
 10
1509.58469833
 20
-905.4557243423
 10
1505.8679360755
 20
-916.2776130412
 10
1501.9301577457
 20
-927.096095667
 10
1497.7748219975
 20
-937.9016700544
 10
1493.4055785745
 20
-948.6848453761
 10
1488.8262651009
 20
-959.436150478
 10
1484.0409037115
 20
-970.1461421989
 10
1479.0536975182
 20
-980.8054136641
 10
1473.8690269187
 20
-991.4046025477
 10
1468.4914457493
 20
-1001.9343992962
 10
1462.9256772845
 20
-1012.3855553051
 10
1457.1766100889
 20
-1022.7488910419
 10
1451.2492937235
 20
-1033.0153041093
 10
1445.14893431
 20
-1043.1757772397
 10
1438.8808899587
 20
-1053.2213862153
 10
1432.4506660622
 20
-1063.1433077068
 10
1425.8639104596
 20
-1072.9328270228
 10
1419.1264084761
 20
-1082.5813457643
 10
1412.2440778414
 20
-1092.080389377
 10
1405.2229634922
 20
-1101.4216145945
 10
1398.0692322628
 20
-1110.5968167668
 10
1390.7891674683
 20
-1119.5979370661
 10
1383.389163386
 20
-1128.4170695656
 10
1375.8757196391
 20
-1137.0464681834
 10
1368.2554354882
 20
-1145.4785534857
 10
1360.5350040343
 20
-1153.7059193445
 10
1352.7212063407
 20
-1161.7213394424
 10
1344.8209054767
 20
-1169.5177736196
 10
1336.8410404898
 20
-1177.0883740577
 10
1328.7886203108
 20
-1184.4264912939
 10
1320.6707175974
 20
-1191.525680062
 10
1312.4944625228
 20
-1198.3797049529
 10
1304.2670365124
 20
-1204.9825458916
 10
1295.9956659363
 20
-1211.3284034246
 10
1287.6876157627
 20
-1217.4117038142
 10
1279.3501831761
 20
-1223.2271039335
 10
1270.9906911685
 20
-1228.7694959595
 10
1262.6164821073
 20
-1234.0340118599
 10
1254.2349112863
 20
-1239.0160276683
 10
1245.8533404653
 20
-1243.7111675458
 10
1237.4791314041
 20
-1248.1153076243
 10
1229.1196393966
 20
-1252.2245796288
 10
1220.7822068099
 20
-1256.0353742747
 10
1212.4741566363
 20
-1259.5443444384
 10
1204.2027860603
 20
-1262.7484080966
 10
1195.9753600498
 20
-1265.6447510338
 10
1187.7991049752
 20
-1268.2308293139
 10
1179.6812022618
 20
-1270.5043715144
 10
1171.6287820828
 20
-1272.463380722
 10
1163.6489170959
 20
-1274.106136286
 10
1155.7486162319
 20
-1275.4311953298
 10
1147.9348185383
 20
-1276.4373940184
 10
1140.2143870844
 20
-1277.1238485803
 10
1132.5941029335
 20
-1277.4899560839
 10
1125.0806591866
 20
-1277.5353949671
 10
1117.6806551043
 20
-1277.2601253197
 10
1110.4005903098
 20
-1276.6643889186
 10
1103.2468590804
 20
-1275.7487090149
 10
1096.2257447312
 20
-1274.5138898752
 10
1089.3434140965
 20
-1272.9610160744
 10
1082.605912113
 20
-1271.0914515434
 10
1076.0191565104
 20
-1268.9068383712
 10
1069.5889326139
 20
-1266.4090953625
 10
1063.3208882626
 20
-1263.6004163524
 10
1057.2205288491
 20
-1260.4832682795
 10
1054.2511647591
 20
-1258.8192478663
  0
LWPOLYLINE
  5
BF
330
1F
100
AcDbEntity
  8
0
  6
Continuous
 62
     7
370
    25
100
AcDbPolyline
 90
      140
 70
   128
 43
0.0
 10
1304.196115197
 20
-531.3341043228
 10
1309.4655664174
 20
-530.2830667465
 10
1317.3658672813
 20
-528.9580077027
 10
1325.1796649749
 20
-527.9518090141
 10
1332.9000964289
 20
-527.2653544523
 10
1340.5203805798
 20
-526.8992469487
 10
1348.0338243266
 20
-526.8538080654
 10
1355.4338284089
 20
-527.1290777128
 10
1362.7138932035
 20
-527.7248141139
 10
1369.8676244329
 20
-528.6404940176
 10
1376.8887387821
 20
-529.8753131573
 10
1383.7710694168
 20
-531.4281869581
 10
1390.5085714003
 20
-533.2977514891
 10
1397.0953270029
 20
-535.4823646613
 10
1403.5255508994
 20
-537.98010767
 10
1409.7935952507
 20
-540.7887866801
 10
1415.8939546641
 20
-543.905934753
 10
1421.8212710296
 20
-547.3288140136
 10
1427.5703382252
 20
-551.0544180545
 10
1433.13610669
 20
-555.0794745772
 10
1438.5136878594
 20
-559.4004482661
 10
1443.6983584588
 20
-564.0135438932
 10
1448.6855646521
 20
-568.9147096523
 10
1453.4709260416
 20
-574.0996407171
 10
1458.0502395151
 20
-579.5637830229
 10
1462.4194829382
 20
-585.3023372661
 10
1466.5748186864
 20
-591.3102631195
 10
1470.5125970162
 20
-597.5822836598
 10
1474.2293592707
 20
-604.1128900022
 10
1477.7218409173
 20
-610.8963461388
 10
1480.986974415
 20
-617.9266939772
 10
1484.0218919092
 20
-625.1977585731
 10
1486.8239277498
 20
-632.7031535542
 10
1489.3906208331
 20
-640.4362867297
 10
1491.7197167635
 20
-648.39036588
 10
1493.809169833
 20
-656.5584047229
 10
1495.6571448186
 20
-664.9332290493
 10
1497.2620185941
 20
-673.5074830251
 10
1498.6223815556
 20
-682.2736356517
 10
1499.7370388595
 20
-691.2239873807
 10
1500.6050114722
 20
-700.3506768767
 10
1501.22553703
 20
-709.645687922
 10
1501.5980705085
 20
-719.1008564576
 10
1501.7222847016
 20
-728.7078777539
 10
1501.5980705085
 20
-738.4583137049
 10
1501.22553703
 20
-748.3436002395
 10
1500.6050114722
 20
-758.355054844
 10
1499.7370388595
 20
-768.4838841874
 10
1498.6223815556
 20
-778.7211918459
 10
1497.2620185941
 20
-789.0579861157
 10
1495.6571448186
 20
-799.4851879116
 10
1493.809169833
 20
-809.993638741
 10
1491.7197167635
 20
-820.5741087478
 10
1489.3906208331
 20
-831.2173048198
 10
1486.8239277498
 20
-841.9138787508
 10
1484.0218919092
 20
-852.6544354511
 10
1480.986974415
 20
-863.4295412001
 10
1477.7218409173
 20
-874.2297319316
 10
1474.2293592707
 20
-885.0455215468
 10
1470.5125970162
 20
-895.8674102456
 10
1466.5748186864
 20
-906.6858928714
 10
1462.4194829382
 20
-917.4914672589
 10
1458.0502395151
 20
-928.2746425805
 10
1453.4709260416
 20
-939.0259476825
 10
1448.6855646521
 20
-949.7359394034
 10
1443.6983584588
 20
-960.3952108685
 10
1438.5136878594
 20
-970.9943997521
 10
1433.13610669
 20
-981.5241965007
 10
1427.5703382252
 20
-991.9753525095
 10
1421.8212710296
 20
-1002.3386882463
 10
1415.8939546641
 20
-1012.6051013137
 10
1409.7935952506
 20
-1022.7655744441
 10
1403.5255508994
 20
-1032.8111834198
 10
1397.0953270029
 20
-1042.7331049113
 10
1390.5085714003
 20
-1052.5226242272
 10
1383.7710694168
 20
-1062.1711429687
 10
1376.8887387821
 20
-1071.6701865814
 10
1369.8676244329
 20
-1081.011411799
 10
1362.7138932035
 20
-1090.1866139712
 10
1355.4338284089
 20
-1099.1877342705
 10
1348.0338243266
 20
-1108.0068667701
 10
1340.5203805798
 20
-1116.6362653878
 10
1332.9000964289
 20
-1125.0683506901
 10
1325.1796649749
 20
-1133.2957165489
 10
1317.3658672813
 20
-1141.3111366468
 10
1309.4655664174
 20
-1149.107570824
 10
1301.4857014305
 20
-1156.6781712621
 10
1293.4332812514
 20
-1164.0162884984
 10
1285.3153785381
 20
-1171.1154772665
 10
1277.1391234635
 20
-1177.9695021573
 10
1268.911697453
 20
-1184.572343096
 10
1260.640326877
 20
-1190.9182006291
 10
1252.3322767033
 20
-1197.0015010187
 10
1243.9948441167
 20
-1202.8169011379
 10
1235.6353521091
 20
-1208.359293164
 10
1227.261143048
 20
-1213.6238090644
 10
1218.879572227
 20
-1218.6058248728
 10
1210.498001406
 20
-1223.3009647502
 10
1202.1237923448
 20
-1227.7051048287
 10
1193.7643003372
 20
-1231.8143768332
 10
1185.4268677506
 20
-1235.6251714791
 10
1177.118817577
 20
-1239.1341416428
 10
1168.8474470009
 20
-1242.338205301
 10
1160.6200209905
 20
-1245.2345482382
 10
1152.4437659158
 20
-1247.8206265183
 10
1144.3258632025
 20
-1250.0941687188
 10
1136.2734430234
 20
-1252.0531779264
 10
1128.2935780366
 20
-1253.6959334904
 10
1120.3932771726
 20
-1255.0209925342
 10
1112.579479479
 20
-1256.0271912228
 10
1104.8590480251
 20
-1256.7136457847
 10
1097.2387638741
 20
-1257.0797532883
 10
1089.7253201273
 20
-1257.1251921715
 10
1082.325316045
 20
-1256.8499225242
 10
1075.0452512505
 20
-1256.254186123
 10
1067.8915200211
 20
-1255.3385062194
 10
1060.8704056719
 20
-1254.1036870797
 10
1053.9880750372
 20
-1252.5508132788
 10
1047.2505730537
 20
-1250.6812487478
 10
1040.663817451
 20
-1248.4966355756
 10
1034.2335935545
 20
-1245.998892567
 10
1027.9655492033
 20
-1243.1902135569
 10
1021.8651897898
 20
-1240.0730654839
 10
1015.9378734243
 20
-1236.6501862234
 10
1010.1888062288
 20
-1232.9245821825
 10
1004.623037764
 20
-1228.8995256597
 10
999.2454565945
 20
-1224.5785519709
 10
994.0607859951
 20
-1219.9654563437
 10
989.0735798018
 20
-1215.0642905847
 10
984.2882184124
 20
-1209.8793595198
 10
979.7089049388
 20
-1204.415217214
 10
975.3396615158
 20
-1198.6766629709
 10
971.1843257676
 20
-1192.6687371174
 10
967.2465474377
 20
-1186.3967165771
 10
963.5297851833
 20
-1179.8661102347
 10
960.0373035367
 20
-1173.0826540981
 10
956.7721700389
 20
-1166.0523062597
 10
953.7372525448
 20
-1158.7812416639
 10
950.9352167042
 20
-1151.2758466827
 10
949.2249651112
 20
-1146.2287966131
  0
LWPOLYLINE
  5
C0
330
1F
100
AcDbEntity
  8
0
  6
Continuous
 62
     7
370
    25
100
AcDbPolyline
 90
       26
 70
   128
 43
0.0
 10
1036.0052548899
 20
-931.9902959411
 10
1038.042094496
 20
-925.4066412196
 10
1041.2905291392
 20
-915.505803174
 10
1044.7623130336
 20
-905.6017072581
 10
1048.4538047572
 20
-895.7047415009
 10
1052.3611324451
 20
-885.8252864528
 10
1056.48019785
 20
-875.9737042979
 10
1060.8066806412
 20
-866.1603279854
 10
1065.3360429356
 20
-856.395450392
 10
1070.0635340577
 20
-846.6893135258
 10
1074.984195522
 20
-837.0520977841
 10
1080.0928662343
 20
-827.4939112753
 10
1085.3841879044
 20
-818.0247792172
 10
1090.8526106666
 20
-808.6546334217
 10
1096.4923989004
 20
-799.3933018779
 10
1102.297637247
 20
-790.2504984436
 10
1108.2622368128
 20
-781.235812657
 10
1114.3799415566
 20
-772.3586996788
 10
1120.644334851
 20
-763.6284703746
 10
1127.0488462124
 20
-755.0542815493
 10
1133.5867581928
 20
-746.6451263431
 10
1140.2512134253
 20
-738.4098247984
 10
1147.0352218168
 20
-730.3570146095
 10
1153.9316678793
 20
-722.4951420621
 10
1160.933318193
 20
-714.832453175
 10
1162.0673808487
 20
-713.6206280618
  0
ENDSEC
  0
SECTION
  2
OBJECTS
  0
DICTIONARY
  5
C
330
0
100
AcDbDictionary
281
     1
  3
ACAD_GROUP
350
D
  3
ACAD_LAYOUT
350
1A
  3
ACAD_MLINESTYLE
350
17
  3
ACAD_PLOTSETTINGS
350
19
  3
ACAD_PLOTSTYLENAME
350
E
  3
ACAD_SCALELIST
350
47
  0
DICTIONARY
  5
D
102
{ACAD_REACTORS
330
C
102
}
330
C
100
AcDbDictionary
281
     1
  0
DICTIONARY
  5
1A
102
{ACAD_REACTORS
330
C
102
}
330
C
100
AcDbDictionary
281
     1
  3
Layout1
350
1E
  3
Layout2
350
26
  3
Model
350
22
  0
DICTIONARY
  5
17
102
{ACAD_REACTORS
330
C
102
}
330
C
100
AcDbDictionary
281
     1
  3
Standard
350
18
  0
DICTIONARY
  5
19
102
{ACAD_REACTORS
330
C
102
}
330
C
100
AcDbDictionary
281
     1
  0
ACDBDICTIONARYWDFLT
  5
E
102
{ACAD_REACTORS
330
C
102
}
330
C
100
AcDbDictionary
281
     1
  3
Normal
350
F
100
AcDbDictionaryWithDefault
340
F
  0
DICTIONARY
  5
47
102
{ACAD_REACTORS
330
C
102
}
330
C
100
AcDbDictionary
281
     1
  3
A0
350
48
  3
A1
350
49
  3
A2
350
4A
  3
A3
350
4B
  3
A4
350
4C
  3
A5
350
4D
  3
A6
350
4E
  3
A7
350
4F
  3
A8
350
50
  3
A9
350
51
  3
B0
350
52
  3
B1
350
53
  3
B2
350
54
  3
B3
350
55
  3
B4
350
56
  3
B5
350
57
  3
B6
350
58
  3
B7
350
59
  3
B8
350
5A
  3
B9
350
5B
  3
C0
350
5C
  3
C1
350
5D
  3
C2
350
5E
  3
C3
350
5F
  3
C4
350
60
  3
C5
350
61
  3
C6
350
62
  3
C7
350
63
  3
C8
350
64
  3
C9
350
65
  3
D0
350
66
  3
D1
350
67
  3
D2
350
68
  0
LAYOUT
  5
1E
102
{ACAD_REACTORS
330
1A
102
}
330
1A
100
AcDbPlotSettings
  1

  2
none_device
  4

  6

 40
0.0
 41
0.0
 42
0.0
 43
0.0
 44
0.0
 45
0.0
 46
0.0
 47
0.0
 48
0.0
 49
0.0
140
0.0
141
0.0
142
1.0
143
1.0
 70
   688
 72
     1
 73
     0
 74
     5
  7

 75
    16
147
1.0
148
0.0
149
0.0
100
AcDbLayout
  1
Layout1
 70
     1
 71
     1
 10
0.0
 20
0.0
 11
420.0
 21
297.0
 12
0.0
 22
0.0
 32
0.0
 14
1.0000000000E+20
 24
1.0000000000E+20
 34
1.0000000000E+20
 15
-1.0000000000E+20
 25
-1.0000000000E+20
 35
-1.0000000000E+20
146
0.0
 13
0.0
 23
0.0
 33
0.0
 16
1.0
 26
0.0
 36
0.0
 17
0.0
 27
1.0
 37
0.0
 76
     0
330
1B
  0
LAYOUT
  5
26
102
{ACAD_REACTORS
330
1A
102
}
330
1A
100
AcDbPlotSettings
  1

  2
none_device
  4

  6

 40
0.0
 41
0.0
 42
0.0
 43
0.0
 44
0.0
 45
0.0
 46
0.0
 47
0.0
 48
0.0
 49
0.0
140
0.0
141
0.0
142
1.0
143
1.0
 70
   688
 72
     1
 73
     0
 74
     5
  7

 75
    16
147
1.0
148
0.0
149
0.0
100
AcDbLayout
  1
Layout2
 70
     1
 71
     2
 10
0.0
 20
0.0
 11
0.0
 21
0.0
 12
0.0
 22
0.0
 32
0.0
 14
0.0
 24
0.0
 34
0.0
 15
0.0
 25
0.0
 35
0.0
146
0.0
 13
0.0
 23
0.0
 33
0.0
 16
1.0
 26
0.0
 36
0.0
 17
0.0
 27
1.0
 37
0.0
 76
     0
330
23
  0
LAYOUT
  5
22
102
{ACAD_REACTORS
330
1A
102
}
330
1A
100
AcDbPlotSettings
  1

  2
none_device
  4
Letter_(8.50_x_11.00_Inches)
  6

 40
6.35
 41
6.35
 42
6.35000508
 43
6.35000508
 44
215.9
 45
279.4
 46
0.0
 47
0.0
 48
0.0
 49
0.0
140
0.0
141
0.0
142
1.0
143
1.0
 70
  1712
 72
     1
 73
     0
 74
     0
  7

 75
     0
147
1.0
148
0.0
149
0.0
100
AcDbLayout
  1
Model
 70
     1
 71
     0
 10
0.0
 20
0.0
 11
279.4
 21
215.9
 12
0.0
 22
0.0
 32
0.0
 14
0.0
 24
0.0
 34
0.0
 15
279.4
 25
215.9
 35
0.0
146
0.0
 13
0.0
 23
0.0
 33
0.0
 16
1.0
 26
0.0
 36
0.0
 17
0.0
 27
1.0
 37
0.0
 76
     0
330
1F
331
29
  0
MLINESTYLE
  5
18
102
{ACAD_REACTORS
330
17
102
}
330
17
100
AcDbMlineStyle
  2
Standard
 70
     0
  3

 62
   256
 51
90.0
 52
90.0
 71
     2
 49
0.5
 62
   256
  6
BYLAYER
 49
-0.5
 62
   256
  6
BYLAYER
  0
ACDBPLACEHOLDER
  5
F
102
{ACAD_REACTORS
330
E
102
}
330
E
  0
SCALE
  5
48
102
{ACAD_REACTORS
330
47
102
}
330
47
100
AcDbScale
 70
     0
300
1:1
140
1.0
141
1.0
290
     1
  0
SCALE
  5
49
102
{ACAD_REACTORS
330
47
102
}
330
47
100
AcDbScale
 70
     0
300
1:2
140
1.0
141
2.0
290
     0
  0
SCALE
  5
4A
102
{ACAD_REACTORS
330
47
102
}
330
47
100
AcDbScale
 70
     0
300
1:4
140
1.0
141
4.0
290
     0
  0
SCALE
  5
4B
102
{ACAD_REACTORS
330
47
102
}
330
47
100
AcDbScale
 70
     0
300
1:5
140
1.0
141
5.0
290
     0
  0
SCALE
  5
4C
102
{ACAD_REACTORS
330
47
102
}
330
47
100
AcDbScale
 70
     0
300
1:8
140
1.0
141
8.0
290
     0
  0
SCALE
  5
4D
102
{ACAD_REACTORS
330
47
102
}
330
47
100
AcDbScale
 70
     0
300
1:10
140
1.0
141
10.0
290
     0
  0
SCALE
  5
4E
102
{ACAD_REACTORS
330
47
102
}
330
47
100
AcDbScale
 70
     0
300
1:16
140
1.0
141
16.0
290
     0
  0
SCALE
  5
4F
102
{ACAD_REACTORS
330
47
102
}
330
47
100
AcDbScale
 70
     0
300
1:20
140
1.0
141
20.0
290
     0
  0
SCALE
  5
50
102
{ACAD_REACTORS
330
47
102
}
330
47
100
AcDbScale
 70
     0
300
1:30
140
1.0
141
30.0
290
     0
  0
SCALE
  5
51
102
{ACAD_REACTORS
330
47
102
}
330
47
100
AcDbScale
 70
     0
300
1:40
140
1.0
141
40.0
290
     0
  0
SCALE
  5
52
102
{ACAD_REACTORS
330
47
102
}
330
47
100
AcDbScale
 70
     0
300
1:50
140
1.0
141
50.0
290
     0
  0
SCALE
  5
53
102
{ACAD_REACTORS
330
47
102
}
330
47
100
AcDbScale
 70
     0
300
1:100
140
1.0
141
100.0
290
     0
  0
SCALE
  5
54
102
{ACAD_REACTORS
330
47
102
}
330
47
100
AcDbScale
 70
     0
300
2:1
140
2.0
141
1.0
290
     0
  0
SCALE
  5
55
102
{ACAD_REACTORS
330
47
102
}
330
47
100
AcDbScale
 70
     0
300
4:1
140
4.0
141
1.0
290
     0
  0
SCALE
  5
56
102
{ACAD_REACTORS
330
47
102
}
330
47
100
AcDbScale
 70
     0
300
8:1
140
8.0
141
1.0
290
     0
  0
SCALE
  5
57
102
{ACAD_REACTORS
330
47
102
}
330
47
100
AcDbScale
 70
     0
300
10:1
140
10.0
141
1.0
290
     0
  0
SCALE
  5
58
102
{ACAD_REACTORS
330
47
102
}
330
47
100
AcDbScale
 70
     0
300
100:1
140
100.0
141
1.0
290
     0
  0
SCALE
  5
59
102
{ACAD_REACTORS
330
47
102
}
330
47
100
AcDbScale
 70
     0
300
1/128" = 1'-0"
140
0.0078125
141
12.0
290
     0
  0
SCALE
  5
5A
102
{ACAD_REACTORS
330
47
102
}
330
47
100
AcDbScale
 70
     0
300
1/64" = 1'-0"
140
0.015625
141
12.0
290
     0
  0
SCALE
  5
5B
102
{ACAD_REACTORS
330
47
102
}
330
47
100
AcDbScale
 70
     0
300
1/32" = 1'-0"
140
0.03125
141
12.0
290
     0
  0
SCALE
  5
5C
102
{ACAD_REACTORS
330
47
102
}
330
47
100
AcDbScale
 70
     0
300
1/16" = 1'-0"
140
0.0625
141
12.0
290
     0
  0
SCALE
  5
5D
102
{ACAD_REACTORS
330
47
102
}
330
47
100
AcDbScale
 70
     0
300
3/32" = 1'-0"
140
0.09375
141
12.0
290
     0
  0
SCALE
  5
5E
102
{ACAD_REACTORS
330
47
102
}
330
47
100
AcDbScale
 70
     0
300
1/8" = 1'-0"
140
0.125
141
12.0
290
     0
  0
SCALE
  5
5F
102
{ACAD_REACTORS
330
47
102
}
330
47
100
AcDbScale
 70
     0
300
3/16" = 1'-0"
140
0.1875
141
12.0
290
     0
  0
SCALE
  5
60
102
{ACAD_REACTORS
330
47
102
}
330
47
100
AcDbScale
 70
     0
300
1/4" = 1'-0"
140
0.25
141
12.0
290
     0
  0
SCALE
  5
61
102
{ACAD_REACTORS
330
47
102
}
330
47
100
AcDbScale
 70
     0
300
3/8" = 1'-0"
140
0.375
141
12.0
290
     0
  0
SCALE
  5
62
102
{ACAD_REACTORS
330
47
102
}
330
47
100
AcDbScale
 70
     0
300
1/2" = 1'-0"
140
0.5
141
12.0
290
     0
  0
SCALE
  5
63
102
{ACAD_REACTORS
330
47
102
}
330
47
100
AcDbScale
 70
     0
300
3/4" = 1'-0"
140
0.75
141
12.0
290
     0
  0
SCALE
  5
64
102
{ACAD_REACTORS
330
47
102
}
330
47
100
AcDbScale
 70
     0
300
1" = 1'-0"
140
1.0
141
12.0
290
     0
  0
SCALE
  5
65
102
{ACAD_REACTORS
330
47
102
}
330
47
100
AcDbScale
 70
     0
300
1-1/2" = 1'-0"
140
1.5
141
12.0
290
     0
  0
SCALE
  5
66
102
{ACAD_REACTORS
330
47
102
}
330
47
100
AcDbScale
 70
     0
300
3" = 1'-0"
140
3.0
141
12.0
290
     0
  0
SCALE
  5
67
102
{ACAD_REACTORS
330
47
102
}
330
47
100
AcDbScale
 70
     0
300
6" = 1'-0"
140
6.0
141
12.0
290
     0
  0
SCALE
  5
68
102
{ACAD_REACTORS
330
47
102
}
330
47
100
AcDbScale
 70
     0
300
1'-0" = 1'-0"
140
12.0
141
12.0
290
     0
  0
ENDSEC
  0
EOF
